the music of Dax Riggs and more
 
HomeFAQRegisterLog in

Share | 
 

 Quiet Doom

View previous topic View next topic Go down 
AuthorMessage
gotiis

avatar

Gender : Male
Location : WV


PostSubject: Quiet Doom   Fri Oct 05, 2012 5:50 am

It's got me stumped dudes. I'm trying to figuure out the 2003 Spanish moon version. Please help!
Back to top Go down
doctorthompson

avatar

Gender : Male
Location : Edmonton, AB, Canada


PostSubject: Re: Quiet Doom   Wed Dec 14, 2016 4:32 pm

Title: Quiet Doom
Artist: Dax Riggs


I have no idea if this is how Dax plays it, but the notes are there.
It should be enough to get you started.

I've included chord names above each bar to represent overall tonality, for the people who prefer to just strum while they sing.

Listen to the song for actual timing.

Code:

Verse sections

     C
E |--8--8--8-----8-----7-----8-----7-h-8-p-7-p-5--|
B |--5-----5-----5-----------5--------------------|
G |--5-----5-----5-----------5--------------------|
D |--5--------------------------------------------|
A |-----------------------------------------------|
E |-----------------------------------------------|

     Fsus2           Fmaj7      Am
E |-------3--3--3-----0------|--0---x-------------|
B |--6----6--6--6-----6------|--x---1--x----------|
G |--5----5--5--5-----5------|--2---2--2--2--2--2-|
D |--3----3--3--3-----3------|--2---2--2--2--2--2-|
A |--------------------------|--0---0--0--0--0--0-|
E |--------------------------|--------------------|

    Am/G
E |-----------------------x---0---|
B |-----------------------1---1---|
G |-0h-2--2----0h-2-0h-2--2---2---|  Repeat
D |-0h-2--2----0h-2-0h-2--2---2---|
A |-------0---------------0---0---|
E |-------------------------------|


Turnaround

    E                  F             Am        Am/G
E |-0------------|-x-----------|-0-------|------------|
B |-x------------|-1-----------|-x-------|------------|
G |-1------------|-2-----------|-2---2---|-0h2-0h2--2-|
D |-2------------|-3-----------|-2---2---|-0h2-0h2--2-|
A |-2------------|-3-----------|-0---0---|---0------0-|
E |-0------------|-1-----------|---------|------------|
      ".. of Jelly Roll"
Back to top Go down
 
Quiet Doom
View previous topic View next topic Back to top 
Page 1 of 1
 Similar topics
-
» Christian stoner doom?
» Trouble.

Permissions in this forum:You cannot reply to topics in this forum
A Board with no Name :: Music :: Ghost Movements-
Jump to: