the music of Dax Riggs and more
 
HomeFAQRegisterLog in

Share | 
 

 Dead Flowers

View previous topic View next topic Go down 
AuthorMessage
GKP

avatar

Gender : Male
Location : Georgia


PostSubject: Dead Flowers   Mon Mar 18, 2013 2:44 pm

---------------------------------------------------------------------------------------
---------------------------------------------------------------------------------------
-------5-----------------------------------------------------------5------------------
-------5---------------------5---------------3--------------------5------------------
-------3---------------------5---------------3--------------------3------------------
-----------------------------3---------------1----------------------------------------

well when you're sittin' there in your silk upholstered chair

-----------------------------------------------------------------------------
-----------------------------------------------------------------------------
-------5---------------------------------5----------------------------------
-------5------------5-------------------5----------------------------------
-------3------------5-------------------3----------------------------------
--------------------3-------------------------------------------------------

talkin' to some rich folk that you know

repeat throughout
Back to top Go down
Draugr
Behemoth Viking Warlord
avatar

Gender : Male

PostSubject: Re: Dead Flowers   Mon Apr 01, 2013 5:33 am

horns
Back to top Go down
 
Dead Flowers
View previous topic View next topic Back to top 
Page 1 of 1
 Similar topics
-
» Slip knot bassist dead at 38
» Dead to Sin
» Dead & Gone by Waggy T
» waggy Tee Dead & Gone artists plus more Part 1
» Newsboys - God is Not Dead

Permissions in this forum:You cannot reply to topics in this forum
A Board with no Name :: Music :: Ghost Movements-
Jump to: