the music of Dax Riggs and more
 
HomeFAQRegisterLog in

Share | 
 

 Night is the Notion

View previous topic View next topic Go down 
AuthorMessage
GKP

avatar

Gender : Male
Location : Georgia


PostSubject: Night is the Notion   Sat May 18, 2013 1:46 am

E and Am for most of it but the power chords are as fallows

---------------------------------------------------------
---------------------------------------------------------
--------------------5-------------------7---------------
------5------------5-------------------7----------------
------5------------3-------------------5----------------
------3--------------------------------------------------
Maybe I will Maybe I wont Maybe it dies

-------------------------------------------------------
-------------------------------------------------------
------------5------------------------------------------
------------5-----------------------------5------------
------------3-----------------------------5------------
------------------------------------------3-----------
Or maybe baby it don't Or maybe baby it don't

Then back to E.
Back to top Go down
Doomchild
the janitor
avatar

Gender : Male
Location : Cologne, Germany


PostSubject: Re: Night is the Notion   Sat May 18, 2013 12:48 pm

horns
Back to top Go down
 
Night is the Notion
View previous topic View next topic Back to top 
Page 1 of 1
 Similar topics
-
» Rhythm Night in San Jose
» Desyre - Warning Of The Night
» Atlanta Braves Faith Night
» Three Dog Night-One 1969
» 'Twas The Night Before Christmas

Permissions in this forum:You cannot reply to topics in this forum
A Board with no Name :: Music :: Ghost Movements-
Jump to: