the music of Dax Riggs and more
 
HomeFAQRegisterLog in

Share | 
 

 Let Me Be Your Cigarette

View previous topic View next topic Go down 
AuthorMessage
SanitaryRefuse

avatar


PostSubject: Let Me Be Your Cigarette   Tue Aug 10, 2010 2:22 pm

old acoustic version:

part 1
e------------------------------------
b---6-6-6-0-5-5-5-0-3-3-3-3--3-3---3-
g---5-5-5-0-4-4-4-0-2-2-0-2--2-0h2-0-
d---0-0-0-0-0-0-0-0-0-0-0-0--0-3---0-
a------------------------------------
e------------------------------------

part 2
e----------------------------------
b-----------------3-3-3-3--3-3---3-
g---5-5-5-0-----0-2-2-0-2--2-0h2-0-
d---5-5-5-0-5-5-0-0-0-0-0--0-3---0-
a---3-3-3-0-5-5-0------------------
e-----------3-3--------------------

parts 1 & 2 played together, but for chorus part 2 played by itself a

few times.


new version:

part 1
F E D

part 2
C G D


same rule applies


and i should note that all guitars are tuned to Eb so basically any chord i have written is relative to fingering, but will actually be half a step lower.

Back to top Go down
 
Let Me Be Your Cigarette
View previous topic View next topic Back to top 
Page 1 of 1

Permissions in this forum:You cannot reply to topics in this forum
A Board with no Name :: Music :: Ghost Movements-
Jump to: