the music of Dax Riggs and more
 
HomeFAQRegisterLog in

Share | 
 

 My Heart Awakes Screaming

Go down 
AuthorMessage
SanitaryRefuse

avatar


PostSubject: My Heart Awakes Screaming   Tue Aug 10, 2010 3:16 pm

pretty much just this:

e-------------------------------
b-------------------------------
g-------------------------------
d-----------8-8-----------8-7---
a---7-7-5-7-------7-7-5-7-------
e---0-0-0-0-0-0---0-0-0-0-0-0---

and throw in a couple of these every now and then:

e-------------------------------
b-------------------------------
g-----------8-8-----------8-7---
d---7-7-5-7-------7-7-5-7-------
a---0-0-0-0-0-0---0-0-0-0-0-0---
e-------------------------------


and for the newer versions the faster ending is basically the same part
played much faster with more strumming and some variations.


all guitars are tuned to Eb so basically any chord i have written is relative to fingering, but will actually be half a step lower.


Back to top Go down
 
My Heart Awakes Screaming
Back to top 
Page 1 of 1

Permissions in this forum:You cannot reply to topics in this forum
A Board with no Name :: Music :: Ghost Movements-
Jump to: