the music of Dax Riggs and more
 
HomeFAQRegisterLog in

Share | 
 

 Say Goodnight to the World

Go down 
AuthorMessage
SanitaryRefuse

avatar


PostSubject: Say Goodnight to the World   Tue Aug 10, 2010 3:47 pm

e---12-9h12h9-------------------------------------------------
b-------------12-9h12h9---------------------------------------
g-----------------------11-9h11p9--------9--------------9-----
d---------------------------------11--11---11--9--11-11---11--
a-------------------------------------------------------------
e-------------------------------------------------------------

under which Dax plays:
d-------2-----------2--------2-----------2----
a---4-4---4--2--4-4---4--4-4---4--2--4-4---4--

chorus

C# E B

and as always, play with variation throughout


all guitars are tuned to Eb so basically any chord i have written is
relative to fingering, but will actually be half a step lower.

Back to top Go down
 
Say Goodnight to the World
Back to top 
Page 1 of 1
 Similar topics
-
» World War 1: Researching Canadian Soldiers and Units of the CEF
» Glastonbury to trial Qatar World Cup weather machine (? ALERT ?01/04???)
» Show Your Thanks to World War II Veterans
» BDP world support and information.
» Goodbye, Cruel World

Permissions in this forum:You cannot reply to topics in this forum
A Board with no Name :: Music :: Ghost Movements-
Jump to: