the music of Dax Riggs and more
 
HomeFAQRegisterLog in

Share | 
 

 The Skeletal Circus Derails

View previous topic View next topic Go down 
AuthorMessage
dcfbama

avatar

Gender : Male
Location : alabama


PostSubject: The Skeletal Circus Derails   Wed Jan 05, 2011 8:14 pm

This is the old Daisyhead version. Or at least the way I remember learning it when it was posted up on SC.


l---------------------------------
l--------0------------------------
l------0--0------0-0--------------
l----4------4----2-2---0-0-----
l--2-------------0-0---5-5-------
l-----------------------3-3-------
Back to top Go down
Draugr
Behemoth Viking Warlord
avatar

Gender : Male

PostSubject: Re: The Skeletal Circus Derails   Wed Jan 05, 2011 10:02 pm

What a great song.
Back to top Go down
FormalinDance
Strange Soul
avatar

Gender : Male
Location : Milwaukee


PostSubject: Re: The Skeletal Circus Derails   Wed Jan 05, 2011 11:36 pm

|-------------3----------------------------------------------
|-3---0------3-----------------------------------------------
|-2---0--0---0----------------------------------------------
|-0---4--2---0----------------------------------------------
|-0---2--0---0----------------------------------------------
|-------------3----------------------------------------------

This is the chorus chord formation. Listen for the picking of each note in the song, I am too lazy for all that. But the notes are all in these chords.

Back to top Go down
Draugr
Behemoth Viking Warlord
avatar

Gender : Male

PostSubject: Re: The Skeletal Circus Derails   Thu Jan 06, 2011 3:43 am

bananallama
Back to top Go down
dcfbama

avatar

Gender : Male
Location : alabama


PostSubject: Re: The Skeletal Circus Derails   Thu Jan 06, 2011 5:44 pm

FormalinDance wrote:

|-------------3----------------------------------------------
|-3---0------3-----------------------------------------------
|-2---0--0---0----------------------------------------------
|-0---4--2---0----------------------------------------------
|-0---2--0---0----------------------------------------------
|-------------3----------------------------------------------

This is the chorus chord formation. Listen for the picking of each note in the song, I am too lazy for all that. But the notes are all in these chords.



Hey thanks man! Never learned that part before. horns
Back to top Go down
dcfbama

avatar

Gender : Male
Location : alabama


PostSubject: Re: The Skeletal Circus Derails   Thu Jan 06, 2011 5:45 pm

Draugr wrote:
bananallama


lol2
Back to top Go down
Sponsored content




PostSubject: Re: The Skeletal Circus Derails   

Back to top Go down
 
The Skeletal Circus Derails
View previous topic View next topic Back to top 
Page 1 of 1
 Similar topics
-
» Circus Magazine 1969 'Here Come the Crazies'
» Tiny Circus (Kanji)
» Jet Circus - No Mercy For the Living Dead
» Η γωνιά του Cabaret και του Circus !!!

Permissions in this forum:You cannot reply to topics in this forum
A Board with no Name :: Music :: Ghost Movements-
Jump to: