the music of Dax Riggs and more
 
HomeFAQRegisterLog in

Share | 
 

 New Death Sensation Tabs

View previous topic View next topic Go down 
AuthorMessage
TheSDBSickness

avatar

Gender : Male
Location : Eugene, Oregon


PostSubject: New Death Sensation Tabs   Wed May 04, 2011 4:34 pm

I've looked on every sight and nobody seems to have accurate tabs for New Death Sensation (favorite Acid Bath song). The ones I have sound good enough when I play it, but it is not completely accurate, and the second half of the song is just way off. Anybody have good tabs for it?
Back to top Go down
SanitaryRefuse

avatar


PostSubject: Re: New Death Sensation Tabs   Thu May 05, 2011 8:25 pm

New Death Sensation
Acid Bath - Pagan Terrorism Tactics
C Tuning


|-------------------------------------------------------------------------------
|-------------------------------------------------------------------------------
|--0-----0--0h2-----2--2-----2--2-----2--0-----0--0h2-----2--2-----2--2-----2---
|-----3----------0--------0-----0--0--------3----------0--------0--------0------
|----------------------0--------0----------------------------0--------0---------
|-------------------------------------------------------------------------------


------------------------------------------------------------------------------
------------------------------------------------------------------------------
--0-----0--3-----3--3-----3--3-----3---2-----0--0h2-----2--2-----2--2-----2---
-----3--------0--------0--------0---------0----------0--------0--------0------
-----------------------------------------------------------0--------0---------
-----------2--------2--------2---------1--------------------------------------
I wonder have you ever seen the sky


---------------------------------------------------------------------------
---------------------------------------------------------------------------
--0-----0--7-----7--7-----7--7-----7--8-----2--1-----1--1-----1--1-----1---
-----3--------0--------0--------0--------0--------2--------2--------2------
---------------------------------------------------------------------------
-----------6--------6--------6--------7-----1--0----(0)-0----(0)-0----(0)--
and felt this weight upon open eyes
(The notes in parenthesis may or may not be played.
I prefer not to play them.)

-------------------------------------------------------------------------------
-------------------------------------------------------------------------------
--0-----0--0h2-----2--2-----2--2-----2--0-----0--0h2-----2--2-----2--2-----2---
-----3----------0--------0--------0--------3----------0--------0--------0------
----------------------0--------0----------------------------0--------0---------
-------------------------------------------------------------------------------
new death sensation


----------------------------------------------------------0-----------------0-------
-------------------------------------------------------------0----------------------
--0-----0--7-----7--7-----7--7-----7--8-----2--1----------------1-------------------
-----3--------0--------0--------0--------0-------------------------2-----2----------
----------------------------------------------------------------------2-------------
-----------6--------6--------6--------7-----1--0------------------------------------
fresh flowers dream to bloom


|-------------------------------------------------------------------------------
|-------------------------------------------------------------------------------
|--0-----0--0h2-----2--2-----2--2-----2--0-----0--0h2-----2--2-----2--2-----2---
|-----3----------0--------0--------0--------3----------0--------0--------0------
|----------------------0--------0----------------------------0--------0---------
|-------------------------------------------------------------------------------
illumination new death sensation

------------------------------------------------------------------------------
------------------------------------------------------------------------------
--0-----0--3-----3--3-----3--3-----3---2-----0--0h2-----2--2-----2--2-----2---
-----3--------0--------0--------0---------0----------0--------0--------0------
-----------------------------------------------------------0--------0---------
-----------2--------2--------2---------1--------------------------------------
we dance the stone death naked by the shore


----------------------------------------------------------0-----------------0-------
-------------------------------------------------------------0----------------------
--0-----0--7-----7--7-----7--7-----7--8-----2--1----------------1-------------------
-----3--------0--------0--------0--------0-------------------------2-----2----------
----------------------------------------------------------------------2-------------
-----------6--------6--------6--------7-----1--0------------------------------------
I hear her highway song forevermore


-------------------------------------------------------------------------------
-------------------------------------------------------------------------------
--0-----0--0h2-----2--2-----2--2-----2--0-----0--0h2-----2--2-----2--2-----2---
-----3----------0--------0--------0--------3----------0--------0--------0------
----------------------0--------0----------------------------0--------0---------
-------------------------------------------------------------------------------
illumination new death sensation


not sure where i got this tab, but it's labeled 'New Death Sensation good" and if i RECALL, it is.

Back to top Go down
SanitaryRefuse

avatar


PostSubject: Re: New Death Sensation Tabs   Thu May 05, 2011 8:33 pm

Here's another version. some of this one sounds better to me because playing on lower strings just makes it more thick, and haunting, but whatever your poison...



"New Death Sensation" by Acid Bath, tabbed by Rick Q.
The entire song is tuned down a whole step.

Riff 1, acoustic guitar

D---------------------------------------------------------------------------
A---------------------------------------------------------------------------
F---------------------------------------------------------------------------
C-3-----3----3h5------5--5------5--5------5---------------------------------
G----6-------------3--------3---------3-------------------------------------
D---------------------------------------------------------------------------

Riff 2, acoustic guitar

D----------------------------------------------------------------------------
A----------------------------------------------------------------------------
F----------------------------------------------------------------------------
C-3-----3--3h6-----6--6-------6--6-----6--5---3--3h5-----5--5-----5--5---5---
G----6----------3---------3---------3-------3----------3--------3------3-----
D----------------------------------------------------------------------------

Riff 3, acoustic guitar

D----------------------------------------------------------------------------
A----------------------------------------------------------------------------
F----------------------------------------------------------------------------
C-3-----3--10-----10--10-----10--10-----10--11---5--4-----4--4------4--4----4
G----6-------------------------------------------------5---------5--------5-
D--------------8----------8----------8---------------------------------------

Riff 4, clean electric guitar (Guitar 1)

D----------------------------------------------------------------------------
A----------------------------------------------------------------------------
F-----7---------7---------7----------7---------------------------------------
C-7------7--8-----8---7------7---8------8------------------------------------
G----------------------------------------------------------------------------
D----------------------------------------------------------------------------

Riff 5, clean electric guitar (Guitar 2)

D-------------------------------6------------------------------------6-------
A-6--------6---------6-------------------5---------5--------5----------------
F----7--------7---------7---------7---------7---------7--------7--------7----
C-------7--------7---------7---------7----------7--------7--------7--------7-
G----------------------------------------------------------------------------
D----------------------------------------------------------------------------

chord

D----------------------------------------------------------------------------
A-3-----------------3--------------------------------------------------------
F----2-----------2-----------------------------------------------------------
C-------0-----0--------------------------------------------------------------
G----------0-----------------------------------------------------------------
D----------------------------------------------------------------------------

Order: Riff1 2X, Riff2 1X, Riff3 1X, Riff1 1X, Riff3 1X, Chord, Riff1 2X, Riff2 1X,
Riff3 1X, Chord. Then Riff4 is played once then another guitar plays Riff5 on top
of the other guitar. Listen to the song to hear when to play Riff4 or Riff 5.


Back to top Go down
TheSDBSickness

avatar

Gender : Male
Location : Eugene, Oregon


PostSubject: Re: New Death Sensation Tabs   Fri May 06, 2011 3:18 pm

Thank you so much!
Hey, you wouldn't happen to also know where I can find the tabs/lyrics for "Ghost Of A Ghost", would you?
Back to top Go down
tomorrowscorpse




PostSubject: Re: New Death Sensation Tabs   Fri Aug 05, 2011 2:30 pm

try this. C tuning, of coarse

-----------------------
-------------------------
0--0/2-22--22-2--------
-35---0---0---0-----------
------------------------------
--------------------------------

----------------------------------------
----------------------------------------
0--3-33--33-3-------0/2--22-22-2---
-35-0---0---0---7--5----0---0--0----
--------------------5-------------------
-----------------------------------------


-----------------------------------------
----3-33-33--3sl----------------------
0-----------------8----21-11-11-1----
-35-0---0---0-----7-----2--2--2------
-----------------------------------------
-----------------------------------------



------------------------------0---------0--
----3-33-33--3---------------0-----------
0-----------------8----21------1----1---
-35-0---0---0-----7------------2--2----
-----------------------------------2------
-------------------------------------------


--0--0-----------
---01-1--------
4--------------
--------------
-------------
------------

--0-----0----0---8-------0-----0-----0---8-------
8-----8----8---------0-7-----7-----7---------0-
----4-----4----4---9-------4-----4-----4---9--
-----------------------------------
-------------------------------------
---------------------------------------
Back to top Go down
Sponsored content




PostSubject: Re: New Death Sensation Tabs   

Back to top Go down
 
New Death Sensation Tabs
View previous topic View next topic Back to top 
Page 1 of 1
 Similar topics
-
» Why i despise death metal
» Discern - Christian Death Metal
» Death Cult's Tales Of Terror
» Dogs of Pray - Death Will Have To Wait
» Namida no REGRET Chords & Tabs

Permissions in this forum:You cannot reply to topics in this forum
A Board with no Name :: Music :: Ghost Movements-
Jump to: